Help - Search - Members - Calendar
Full Version: Guitar Music
The BUST Lounge > Forums > Media Whores
Polymorphism
Share your latest creation, check out what other people are playing, exchange ideas, and have fun with the guitar!

The following is a song I just sort of came up with when I was messing around on my guitar one day. I've got a Samick TR-1 Torino guitar with Duncan Designed dual humbucking pickups on it. My amp is a Roland Micro Cube and I've got it set up for hard rock for this song. I don't really have a title for it. It's fun to mess around with the rhythm on this song to see what sounds best.

Tuning: Drop D

e|---------------------------------------------------|
B|---------------------------------------------------|
G|---------------------------------------------------| X 4
D|--12-12-12-12-12-12----3-3-3-3-3-3-3----|
A|--12-12-12-12-12-12----3-3-3-3-3-3-3----|
D|--12-12-12-12-12-12----3-3-3-3-3-3-3----|


e|--------------------------------------------|
B|--------------------------------------------|
G|--------------------------------------------| X 1
D|--9-7-5-3-2-0---------------------------|
A|--9-7-5-3-2-0---------------------------|
D|--9-7-5-3-2-0---------------------------|


e|------------------------------------------------|
B|------------------------------------------------|
G|------------------------------------------------| X 2
D|--5-5-5-5-5-5----3-3-3-3-3-3-3----------|
A|--5-5-5-5-5-5----3-3-3-3-3-3-3----------|
D|--5-5-5-5-5-5----3-3-3-3-3-3-3----------|


e|-------------------------------------------|
B|-------------------------------------------|
G|-------------------------------------------| X 1
D|--5-7-9-12------------------------------|
A|--5-7-9-12------------------------------|
D|--5-7-9-12------------------------------|
LoveMyPugs
My only contribution to this thread is:

Um..

I can play a few notes from

Pink Floyd's Another Brick in the Wall Part 2
Metallica's Fade to Black

and that's it.

biggrin.gif
Beauty & her Bass
wow! yay! This is great!

i'm no guitar player but i do enjoy rocking out on bass. (c: I'll post something more constructive when I get home later from work...but this just made me so happy i had to post something!
grrrlyouwant
i took guitar my last couple years in high school, and i kinda wish i'd kept up with it. and i always wanted to learn bass. but i don't think i'm motivated, or coordinated enough. while everyone else was bringing in guitar magazines and plucking out the latest soundgarden riff, i was content to just strum. i totally rocked 'smoke on the water' though. biggrin.gif
This is a "lo-fi" version of our main content. To view the full version with more information, formatting and images, please click here.
Invision Power Board © 2001-2014 Invision Power Services, Inc.